ISO-10303-21;
HEADER;
FILE_DESCRIPTION (( 'STEP AP203' ),
    '1' );
FILE_NAME ('QM-AAQWP-20-450-650-M.STEP',
    '2021-01-05T02:43:00',
    ( '' ),
    ( '' ),
    'SwSTEP 2.0',
    'SolidWorks 2020',
    '' );
FILE_SCHEMA (( 'CONFIG_CONTROL_DESIGN' ));
ENDSEC;

DATA;
#1 = DIRECTION ( 'NONE',  ( -1.000000000000000000, -0.000000000000000000, -0.000000000000000000 ) ) ;
#2 = SECURITY_CLASSIFICATION_LEVEL ( 'unclassified' ) ;
#3 = CYLINDRICAL_SURFACE ( 'NONE', #155, 10.00000000000000000 ) ;
#4 = ORIENTED_EDGE ( 'NONE', *, *, #311, .T. ) ;
#5 = APPROVAL_STATUS ( 'not_yet_approved' ) ;
#6 = AXIS2_PLACEMENT_3D ( 'NONE', #68, #328, #332 ) ;
#7 = ORIENTED_EDGE ( 'NONE', *, *, #57, .T. ) ;
#8 = PERSON_AND_ORGANIZATION_ROLE ( 'design_supplier' ) ;
#9 = EDGE_LOOP ( 'NONE', ( #153, #10, #147, #118 ) ) ;
#10 = ORIENTED_EDGE ( 'NONE', *, *, #249, .T. ) ;
#11 = CC_DESIGN_APPROVAL ( #12, ( #197 ) ) ;
#12 = APPROVAL ( #27, 'UNSPECIFIED' ) ;
#13 = FACE_OUTER_BOUND ( 'NONE', #9, .T. ) ;
#14 = DIRECTION ( 'NONE',  ( -1.000000000000000000, -0.000000000000000000, -0.000000000000000000 ) ) ;
#15 = MANIFOLD_SOLID_BREP ( 'Ðý×', #233 ) ;
#16 = EDGE_LOOP ( 'NONE', ( #93, #177, #243, #39 ) ) ;
#17 = AXIS2_PLACEMENT_3D ( 'NONE', #325, #232, #129 ) ;
#18 = CARTESIAN_POINT ( 'NONE',  ( -1.614212418857619014, 0.000000000000000000, 10.00000000000000000 ) ) ;
#19 = DIRECTION ( 'NONE',  ( 0.000000000000000000, 0.000000000000000000, -1.000000000000000000 ) ) ;
#20 = DIRECTION ( 'NONE',  ( 0.000000000000000000, 0.000000000000000000, 1.000000000000000000 ) ) ;
#21 = LINE ( 'NONE', #289, #119 ) ;
#22 = DATE_AND_TIME ( #107, #139 ) ;
#23 = AXIS2_PLACEMENT_3D ( 'NONE', #238, #82, #142 ) ;
#24 = APPROVAL ( #219, 'UNSPECIFIED' ) ;
#25 = DIRECTION ( 'NONE',  ( -1.000000000000000000, -0.000000000000000000, -0.000000000000000000 ) ) ;
#26 = FACE_OUTER_BOUND ( 'NONE', #244, .T. ) ;
#27 = APPROVAL_STATUS ( 'not_yet_approved' ) ;
#28 = DIRECTION ( 'NONE',  ( -1.000000000000000000, -0.000000000000000000, -0.000000000000000000 ) ) ;
#29 = APPROVAL_ROLE ( '' ) ;
#30 = CIRCLE ( 'NONE', #198, 10.00000000000000000 ) ;
#31 = DIRECTION ( 'NONE',  ( 0.000000000000000000, 0.000000000000000000, 1.000000000000000000 ) ) ;
#32 = APPROVAL_ROLE ( '' ) ;
#33 = PLANE ( 'NONE',  #23 ) ;
#34 = APPROVAL_DATE_TIME ( #172, #292 ) ;
#35 = CC_DESIGN_PERSON_AND_ORGANIZATION_ASSIGNMENT ( #141, #83, ( #149 ) ) ;
#36 = VERTEX_POINT ( 'NONE', #302 ) ;
#37 = ADVANCED_FACE ( 'NONE', ( #204 ), #245, .F. ) ;
#38 = APPLICATION_CONTEXT ( 'configuration controlled 3d designs of mechanical parts and assemblies' ) ;
#39 = ORIENTED_EDGE ( 'NONE', *, *, #185, .T. ) ;
#40 = ORIENTED_EDGE ( 'NONE', *, *, #305, .F. ) ;
#41 = ADVANCED_FACE ( 'NONE', ( #13 ), #121, .T. ) ;
#42 = CARTESIAN_POINT ( 'NONE',  ( -3.000000000000000000, 1.555301434917138433E-15, -12.69999999999999929 ) ) ;
#43 = AXIS2_PLACEMENT_3D ( 'NONE', #215, #230, #283 ) ;
#44 = DIRECTION ( 'NONE',  ( 0.000000000000000000, 0.000000000000000000, 1.000000000000000000 ) ) ;
#45 = DIRECTION ( 'NONE',  ( 0.000000000000000000, 0.000000000000000000, 1.000000000000000000 ) ) ;
#46 = ADVANCED_FACE ( 'NONE', ( #274 ), #226, .F. ) ;
#47 = PERSON_AND_ORGANIZATION_ROLE ( 'design_owner' ) ;
#48 = DIRECTION ( 'NONE',  ( 0.000000000000000000, 0.000000000000000000, -1.000000000000000000 ) ) ;
#49 = DIRECTION ( 'NONE',  ( 0.000000000000000000, 0.000000000000000000, 1.000000000000000000 ) ) ;
#50 = LOCAL_TIME ( 10, 43, 0.000000000000000000, #87 ) ;
#51 = CARTESIAN_POINT ( 'NONE',  ( -1.614212418857619014, 1.555301434917138433E-15, -12.69999999999999929 ) ) ;
#52 = DIRECTION ( 'NONE',  ( 0.000000000000000000, 0.000000000000000000, 1.000000000000000000 ) ) ;
#53 = CARTESIAN_POINT ( 'NONE',  ( -1.614212418857619014, 0.000000000000000000, 12.69999999999999929 ) ) ;
#54 = CARTESIAN_POINT ( 'NONE',  ( -3.000000000000000000, 0.000000000000000000, 0.000000000000000000 ) ) ;
#55 = CARTESIAN_POINT ( 'NONE',  ( 3.000000000000000000, 0.000000000000000000, 0.000000000000000000 ) ) ;
#56 = DATE_AND_TIME ( #144, #195 ) ;
#57 = EDGE_CURVE ( 'NONE', #224, #62, #285, .T. ) ;
#58 = VERTEX_POINT ( 'NONE', #207 ) ;
#59 = VECTOR ( 'NONE', #98, 1000.000000000000000 ) ;
#60 = ORIENTED_EDGE ( 'NONE', *, *, #185, .F. ) ;
#61 = EDGE_LOOP ( 'NONE', ( #7, #270 ) ) ;
#62 = VERTEX_POINT ( 'NONE', #42 ) ;
#63 = VECTOR ( 'NONE', #110, 1000.000000000000000 ) ;
#64 = EDGE_LOOP ( 'NONE', ( #117, #205 ) ) ;
#65 = ADVANCED_FACE ( 'NONE', ( #75 ), #303, .T. ) ;
#66 = CARTESIAN_POINT ( 'NONE',  ( -1.614212418857619014, 0.000000000000000000, 0.000000000000000000 ) ) ;
#67 = APPLICATION_CONTEXT ( 'configuration controlled 3d designs of mechanical parts and assemblies' ) ;
#68 = CARTESIAN_POINT ( 'NONE',  ( -1.614212418857619014, 0.000000000000000000, 0.000000000000000000 ) ) ;
#69 = DIRECTION ( 'NONE',  ( 1.000000000000000000, 0.000000000000000000, 0.000000000000000000 ) ) ;
#70 = ADVANCED_FACE ( 'NONE', ( #183 ), #212, .F. ) ;
#71 = PRODUCT ( 'QM-AAQWP-20-450-650-M', 'QM-AAQWP-20-450-650-M', '', ( #331 ) ) ;
#72 = DIRECTION ( 'NONE',  ( 1.000000000000000000, 0.000000000000000000, 0.000000000000000000 ) ) ;
#73 = DIRECTION ( 'NONE',  ( 0.000000000000000000, 0.000000000000000000, 1.000000000000000000 ) ) ;
#74 = PERSON_AND_ORGANIZATION ( #173, #89 ) ;
#75 = FACE_OUTER_BOUND ( 'NONE', #248, .T. ) ;
#76 = DIRECTION ( 'NONE',  ( -1.000000000000000000, -0.000000000000000000, -0.000000000000000000 ) ) ;
#77 = DIRECTION ( 'NONE',  ( -1.000000000000000000, -0.000000000000000000, -0.000000000000000000 ) ) ;
#78 = COORDINATED_UNIVERSAL_TIME_OFFSET ( 8, 0, .AHEAD. ) ;
#79 = ADVANCED_FACE ( 'NONE', ( #279, #312 ), #330, .F. ) ;
#80 = CARTESIAN_POINT ( 'NONE',  ( -3.000000000000000000, 0.000000000000000000, 12.69999999999999929 ) ) ;
#81 = EDGE_LOOP ( 'NONE', ( #326, #322, #179, #318 ) ) ;
#82 = DIRECTION ( 'NONE',  ( 1.000000000000000000, 0.000000000000000000, 0.000000000000000000 ) ) ;
#83 = PERSON_AND_ORGANIZATION_ROLE ( 'creator' ) ;
#84 = LOCAL_TIME ( 10, 43, 0.000000000000000000, #293 ) ;
#85 = ORIENTED_EDGE ( 'NONE', *, *, #99, .T. ) ;
#86 = CC_DESIGN_DATE_AND_TIME_ASSIGNMENT ( #319, #217, ( #197 ) ) ;
#87 = COORDINATED_UNIVERSAL_TIME_OFFSET ( 8, 0, .AHEAD. ) ;
#88 = APPROVAL_PERSON_ORGANIZATION ( #74, #12, #29 ) ;
#89 = ORGANIZATION ( 'UNSPECIFIED', 'UNSPECIFIED', '' ) ;
#90 = ORIENTED_EDGE ( 'NONE', *, *, #122, .T. ) ;
#91 = CC_DESIGN_APPROVAL ( #292, ( #131 ) ) ;
#92 = ORIENTED_EDGE ( 'NONE', *, *, #151, .F. ) ;
#93 = ORIENTED_EDGE ( 'NONE', *, *, #206, .F. ) ;
#94 = EDGE_LOOP ( 'NONE', ( #85, #150, #90, #174 ) ) ;
#95 = CIRCLE ( 'NONE', #176, 10.00000000000000000 ) ;
#96 = EDGE_CURVE ( 'NONE', #202, #324, #188, .T. ) ;
#97 = ORIENTED_EDGE ( 'NONE', *, *, #57, .F. ) ;
#98 = DIRECTION ( 'NONE',  ( -1.000000000000000000, -0.000000000000000000, -0.000000000000000000 ) ) ;
#99 = EDGE_CURVE ( 'NONE', #324, #202, #269, .T. ) ;
#100 = DIRECTION ( 'NONE',  ( 0.000000000000000000, 0.000000000000000000, 1.000000000000000000 ) ) ;
#101 = AXIS2_PLACEMENT_3D ( 'NONE', #66, #148, #247 ) ;
#102 = DIRECTION ( 'NONE',  ( 1.000000000000000000, 0.000000000000000000, 0.000000000000000000 ) ) ;
#103 = PERSON_AND_ORGANIZATION ( #173, #89 ) ;
#104 = CARTESIAN_POINT ( 'NONE',  ( -0.5000000000000006661, 0.000000000000000000, 0.000000000000000000 ) ) ;
#105 = CARTESIAN_POINT ( 'NONE',  ( -1.614212418857619014, 1.224646799147353256E-15, -10.00000000000000000 ) ) ;
#106 = EDGE_CURVE ( 'NONE', #113, #62, #181, .T. ) ;
#107 = CALENDAR_DATE ( 2021, 5, 1 ) ;
#108 = CIRCLE ( 'NONE', #300, 10.00000000000000000 ) ;
#109 = DIRECTION ( 'NONE',  ( -1.000000000000000000, -0.000000000000000000, -0.000000000000000000 ) ) ;
#110 = DIRECTION ( 'NONE',  ( -1.000000000000000000, -0.000000000000000000, -0.000000000000000000 ) ) ;
#111 = PERSON_AND_ORGANIZATION ( #173, #89 ) ;
#112 = ADVANCED_FACE ( 'NONE', ( #26 ), #252, .F. ) ;
#113 = VERTEX_POINT ( 'NONE', #308 ) ;
#114 = PERSON_AND_ORGANIZATION ( #173, #89 ) ;
#115 = CC_DESIGN_SECURITY_CLASSIFICATION ( #131, ( #149 ) ) ;
#116 = APPROVAL_ROLE ( '' ) ;
#117 = ORIENTED_EDGE ( 'NONE', *, *, #216, .F. ) ;
#118 = ORIENTED_EDGE ( 'NONE', *, *, #267, .F. ) ;
#119 = VECTOR ( 'NONE', #28, 1000.000000000000000 ) ;
#120 = ORIENTED_EDGE ( 'NONE', *, *, #295, .F. ) ;
#121 = CYLINDRICAL_SURFACE ( 'NONE', #220, 12.69999999999999929 ) ;
#122 = EDGE_CURVE ( 'NONE', #201, #296, #182, .T. ) ;
#123 = DIRECTION ( 'NONE',  ( 0.000000000000000000, 0.000000000000000000, 1.000000000000000000 ) ) ;
#124 = VERTEX_POINT ( 'NONE', #211 ) ;
#125 = AXIS2_PLACEMENT_3D ( 'NONE', #104, #281, #19 ) ;
#126 = DIRECTION ( 'NONE',  ( -1.000000000000000000, -0.000000000000000000, -0.000000000000000000 ) ) ;
#127 = DIRECTION ( 'NONE',  ( -1.000000000000000000, -0.000000000000000000, -0.000000000000000000 ) ) ;
#128 = CARTESIAN_POINT ( 'NONE',  ( -0.5000000000000006661, 0.000000000000000000, 10.00000000000000000 ) ) ;
#129 = DIRECTION ( 'NONE',  ( -0.000000000000000000, 0.000000000000000000, 1.000000000000000000 ) ) ;
#130 = VECTOR ( 'NONE', #126, 1000.000000000000000 ) ;
#131 = SECURITY_CLASSIFICATION ( '', '', #2 ) ;
#132 = DIRECTION ( 'NONE',  ( -1.000000000000000000, -0.000000000000000000, -0.000000000000000000 ) ) ;
#133 = CARTESIAN_POINT ( 'NONE',  ( -0.5000000000000006661, 1.224646799147353256E-15, -10.00000000000000000 ) ) ;
#134 = DIRECTION ( 'NONE',  ( -1.000000000000000000, -0.000000000000000000, -0.000000000000000000 ) ) ;
#135 = CC_DESIGN_PERSON_AND_ORGANIZATION_ASSIGNMENT ( #114, #268, ( #131 ) ) ;
#136 =( NAMED_UNIT ( * ) SI_UNIT ( $, .STERADIAN. ) SOLID_ANGLE_UNIT ( ) );
#137 = DIRECTION ( 'NONE',  ( -1.000000000000000000, -0.000000000000000000, -0.000000000000000000 ) ) ;
#138 = CARTESIAN_POINT ( 'NONE',  ( -3.000000000000000000, 0.000000000000000000, 10.00000000000000000 ) ) ;
#139 = LOCAL_TIME ( 10, 43, 0.000000000000000000, #189 ) ;
#140 = CARTESIAN_POINT ( 'NONE',  ( -3.000000000000000000, 0.000000000000000000, 0.000000000000000000 ) ) ;
#141 = PERSON_AND_ORGANIZATION ( #173, #89 ) ;
#142 = DIRECTION ( 'NONE',  ( 0.000000000000000000, 0.000000000000000000, -1.000000000000000000 ) ) ;
#143 = COORDINATED_UNIVERSAL_TIME_OFFSET ( 8, 0, .AHEAD. ) ;
#144 = CALENDAR_DATE ( 2021, 5, 1 ) ;
#145 = AXIS2_PLACEMENT_3D ( 'NONE', #254, #76, #160 ) ;
#146 = APPROVAL_PERSON_ORGANIZATION ( #111, #292, #116 ) ;
#147 = ORIENTED_EDGE ( 'NONE', *, *, #231, .T. ) ;
#148 = DIRECTION ( 'NONE',  ( -1.000000000000000000, -0.000000000000000000, -0.000000000000000000 ) ) ;
#149 = PRODUCT_DEFINITION_FORMATION_WITH_SPECIFIED_SOURCE ( 'ANY', '', #71, .NOT_KNOWN. ) ;
#150 = ORIENTED_EDGE ( 'NONE', *, *, #163, .T. ) ;
#151 = EDGE_CURVE ( 'NONE', #297, #36, #282, .T. ) ;
#152 = ORIENTED_EDGE ( 'NONE', *, *, #216, .T. ) ;
#153 = ORIENTED_EDGE ( 'NONE', *, *, #106, .F. ) ;
#154 = CARTESIAN_POINT ( 'NONE',  ( -1.614212418857619014, 0.000000000000000000, 0.000000000000000000 ) ) ;
#155 = AXIS2_PLACEMENT_3D ( 'NONE', #165, #237, #49 ) ;
#156 = LINE ( 'NONE', #257, #251 ) ;
#157 = CC_DESIGN_DATE_AND_TIME_ASSIGNMENT ( #241, #266, ( #131 ) ) ;
#158 = ADVANCED_BREP_SHAPE_REPRESENTATION ( 'QM-AAQWP-20-450-650-M', ( #15, #276 ), #290 ) ;
#159 = CARTESIAN_POINT ( 'NONE',  ( -3.000000000000000000, 1.224646799147353256E-15, -10.00000000000000000 ) ) ;
#160 = DIRECTION ( 'NONE',  ( 0.000000000000000000, 0.000000000000000000, 1.000000000000000000 ) ) ;
#161 = CARTESIAN_POINT ( 'NONE',  ( 0.5000000000000013323, 0.000000000000000000, 0.000000000000000000 ) ) ;
#162 = AXIS2_PLACEMENT_3D ( 'NONE', #310, #190, #255 ) ;
#163 = EDGE_CURVE ( 'NONE', #202, #201, #327, .T. ) ;
#164 = DIRECTION ( 'NONE',  ( -1.000000000000000000, -0.000000000000000000, -0.000000000000000000 ) ) ;
#165 = CARTESIAN_POINT ( 'NONE',  ( -1.614212418857619014, 0.000000000000000000, 0.000000000000000000 ) ) ;
#166 =( LENGTH_UNIT ( ) NAMED_UNIT ( * ) SI_UNIT ( .MILLI., .METRE. ) );
#167 = DIRECTION ( 'NONE',  ( 0.000000000000000000, 0.000000000000000000, 1.000000000000000000 ) ) ;
#168 = CALENDAR_DATE ( 2021, 5, 1 ) ;
#169 = AXIS2_PLACEMENT_3D ( 'NONE', #55, #288, #167 ) ;
#170 = FACE_OUTER_BOUND ( 'NONE', #16, .T. ) ;
#171 = APPROVAL_DATE_TIME ( #56, #24 ) ;
#172 = DATE_AND_TIME ( #316, #50 ) ;
#173 = PERSON ( 'UNSPECIFIED', 'UNSPECIFIED', 'UNSPECIFIED', ('UNSPECIFIED'), ('UNSPECIFIED'), ('UNSPECIFIED') ) ;
#174 = ORIENTED_EDGE ( 'NONE', *, *, #200, .F. ) ;
#175 = ORIENTED_EDGE ( 'NONE', *, *, #99, .F. ) ;
#176 = AXIS2_PLACEMENT_3D ( 'NONE', #161, #127, #44 ) ;
#177 = ORIENTED_EDGE ( 'NONE', *, *, #311, .F. ) ;
#178 = CARTESIAN_POINT ( 'NONE',  ( -1.614212418857619014, 0.000000000000000000, 0.000000000000000000 ) ) ;
#179 = ORIENTED_EDGE ( 'NONE', *, *, #200, .T. ) ;
#180 = CC_DESIGN_PERSON_AND_ORGANIZATION_ASSIGNMENT ( #103, #261, ( #197 ) ) ;
#181 = LINE ( 'NONE', #51, #313 ) ;
#182 = CIRCLE ( 'NONE', #294, 10.00000000000000000 ) ;
#183 = FACE_OUTER_BOUND ( 'NONE', #94, .T. ) ;
#184 = CARTESIAN_POINT ( 'NONE',  ( -3.000000000000000000, 0.000000000000000000, 0.000000000000000000 ) ) ;
#185 = EDGE_CURVE ( 'NONE', #36, #58, #95, .T. ) ;
#186 = CALENDAR_DATE ( 2021, 5, 1 ) ;
#187 = DIRECTION ( 'NONE',  ( 0.000000000000000000, 0.000000000000000000, -1.000000000000000000 ) ) ;
#188 = CIRCLE ( 'NONE', #321, 10.00000000000000000 ) ;
#189 = COORDINATED_UNIVERSAL_TIME_OFFSET ( 8, 0, .AHEAD. ) ;
#190 = DIRECTION ( 'NONE',  ( -1.000000000000000000, -0.000000000000000000, -0.000000000000000000 ) ) ;
#191 = CARTESIAN_POINT ( 'NONE',  ( 0.5000000000000013323, 0.000000000000000000, 0.000000000000000000 ) ) ;
#192 = LINE ( 'NONE', #53, #63 ) ;
#193 = DIRECTION ( 'NONE',  ( 0.000000000000000000, 0.000000000000000000, 1.000000000000000000 ) ) ;
#194 = SHAPE_DEFINITION_REPRESENTATION ( #229, #158 ) ;
#195 = LOCAL_TIME ( 10, 43, 0.000000000000000000, #143 ) ;
#196 = UNCERTAINTY_MEASURE_WITH_UNIT (LENGTH_MEASURE( 1.000000000000000082E-05 ), #166, 'distance_accuracy_value', 'NONE');
#197 = PRODUCT_DEFINITION ( 'UNKNOWN', '', #149, #221 ) ;
#198 = AXIS2_PLACEMENT_3D ( 'NONE', #235, #109, #20 ) ;
#199 = ORIENTED_EDGE ( 'NONE', *, *, #323, .T. ) ;
#200 = EDGE_CURVE ( 'NONE', #324, #296, #156, .T. ) ;
#201 = VERTEX_POINT ( 'NONE', #159 ) ;
#202 = VERTEX_POINT ( 'NONE', #133 ) ;
#203 = CIRCLE ( 'NONE', #304, 12.69999999999999929 ) ;
#204 = FACE_OUTER_BOUND ( 'NONE', #81, .T. ) ;
#205 = ORIENTED_EDGE ( 'NONE', *, *, #249, .F. ) ;
#206 = EDGE_CURVE ( 'NONE', #273, #58, #21, .T. ) ;
#207 = CARTESIAN_POINT ( 'NONE',  ( 0.5000000000000013323, 1.224646799147353256E-15, -10.00000000000000000 ) ) ;
#208 = LOCAL_TIME ( 10, 43, 0.000000000000000000, #78 ) ;
#209 = CARTESIAN_POINT ( 'NONE',  ( -3.000000000000000000, 10.00000000000000000, 0.000000000000000000 ) ) ;
#210 = CARTESIAN_POINT ( 'NONE',  ( 0.000000000000000000, 0.000000000000000000, 0.000000000000000000 ) ) ;
#211 = CARTESIAN_POINT ( 'NONE',  ( 3.000000000000000000, 0.000000000000000000, 12.69999999999999929 ) ) ;
#212 = CYLINDRICAL_SURFACE ( 'NONE', #272, 10.00000000000000000 ) ;
#213 = AXIS2_PLACEMENT_3D ( 'NONE', #209, #69, #187 ) ;
#214 = CARTESIAN_POINT ( 'NONE',  ( 2.999999999999999112, 0.000000000000000000, 10.00000000000000000 ) ) ;
#215 = CARTESIAN_POINT ( 'NONE',  ( 2.999999999999999556, 12.69999999999999929, 0.000000000000000000 ) ) ;
#216 = EDGE_CURVE ( 'NONE', #124, #113, #317, .T. ) ;
#217 = DATE_TIME_ROLE ( 'creation_date' ) ;
#218 = EDGE_LOOP ( 'NONE', ( #4, #320 ) ) ;
#219 = APPROVAL_STATUS ( 'not_yet_approved' ) ;
#220 = AXIS2_PLACEMENT_3D ( 'NONE', #178, #14, #123 ) ;
#221 = DESIGN_CONTEXT ( 'detailed design', #38, 'design' ) ;
#222 = ADVANCED_FACE ( 'NONE', ( #314 ), #33, .F. ) ;
#223 = PERSON_AND_ORGANIZATION ( #173, #89 ) ;
#224 = VERTEX_POINT ( 'NONE', #80 ) ;
#225 = ORIENTED_EDGE ( 'NONE', *, *, #323, .F. ) ;
#226 = PLANE ( 'NONE',  #17 ) ;
#227 = ORIENTED_EDGE ( 'NONE', *, *, #106, .T. ) ;
#228 = DIRECTION ( 'NONE',  ( -1.000000000000000000, -0.000000000000000000, -0.000000000000000000 ) ) ;
#229 = PRODUCT_DEFINITION_SHAPE ( 'NONE', 'NONE',  #197 ) ;
#230 = DIRECTION ( 'NONE',  ( -1.000000000000000000, 0.000000000000000000, -0.000000000000000000 ) ) ;
#231 = EDGE_CURVE ( 'NONE', #124, #224, #192, .T. ) ;
#232 = DIRECTION ( 'NONE',  ( -1.000000000000000000, 0.000000000000000000, -0.000000000000000000 ) ) ;
#233 = CLOSED_SHELL ( 'NONE', ( #65, #70, #112, #46, #280, #37, #79, #41, #315, #222 ) ) ;
#234 = PLANE ( 'NONE',  #43 ) ;
#235 = CARTESIAN_POINT ( 'NONE',  ( 2.999999999999999112, 0.000000000000000000, 0.000000000000000000 ) ) ;
#236 = AXIS2_PLACEMENT_3D ( 'NONE', #191, #25, #287 ) ;
#237 = DIRECTION ( 'NONE',  ( -1.000000000000000000, -0.000000000000000000, -0.000000000000000000 ) ) ;
#238 = CARTESIAN_POINT ( 'NONE',  ( -0.5000000000000006661, 10.00000000000000000, 0.000000000000000000 ) ) ;
#239 = PERSON_AND_ORGANIZATION ( #173, #89 ) ;
#240 = CARTESIAN_POINT ( 'NONE',  ( 2.999999999999999112, 1.224646799147353256E-15, -10.00000000000000000 ) ) ;
#241 = DATE_AND_TIME ( #168, #84 ) ;
#242 = PRODUCT_RELATED_PRODUCT_CATEGORY ( 'detail', '', ( #71 ) ) ;
#243 = ORIENTED_EDGE ( 'NONE', *, *, #151, .T. ) ;
#244 = EDGE_LOOP ( 'NONE', ( #40, #334, #199, #92 ) ) ;
#245 = CYLINDRICAL_SURFACE ( 'NONE', #101, 10.00000000000000000 ) ;
#246 = CIRCLE ( 'NONE', #236, 10.00000000000000000 ) ;
#247 = DIRECTION ( 'NONE',  ( 0.000000000000000000, 0.000000000000000000, 1.000000000000000000 ) ) ;
#248 = EDGE_LOOP ( 'NONE', ( #152, #227, #97, #271 ) ) ;
#249 = EDGE_CURVE ( 'NONE', #113, #124, #203, .T. ) ;
#250 = ORIENTED_EDGE ( 'NONE', *, *, #122, .F. ) ;
#251 = VECTOR ( 'NONE', #228, 1000.000000000000000 ) ;
#252 = CYLINDRICAL_SURFACE ( 'NONE', #264, 10.00000000000000000 ) ;
#253 = CC_DESIGN_PERSON_AND_ORGANIZATION_ASSIGNMENT ( #309, #47, ( #71 ) ) ;
#254 = CARTESIAN_POINT ( 'NONE',  ( 2.999999999999999112, 0.000000000000000000, 0.000000000000000000 ) ) ;
#255 = DIRECTION ( 'NONE',  ( 0.000000000000000000, 0.000000000000000000, 1.000000000000000000 ) ) ;
#256 = APPLICATION_PROTOCOL_DEFINITION ( 'international standard', 'config_control_design', 1994, #38 ) ;
#257 = CARTESIAN_POINT ( 'NONE',  ( -1.614212418857619014, 0.000000000000000000, 10.00000000000000000 ) ) ;
#258 = CIRCLE ( 'NONE', #277, 12.69999999999999929 ) ;
#259 = FACE_OUTER_BOUND ( 'NONE', #64, .T. ) ;
#260 = CARTESIAN_POINT ( 'NONE',  ( -1.614212418857619014, 0.000000000000000000, 0.000000000000000000 ) ) ;
#261 = PERSON_AND_ORGANIZATION_ROLE ( 'creator' ) ;
#262 =( NAMED_UNIT ( * ) PLANE_ANGLE_UNIT ( ) SI_UNIT ( $, .RADIAN. ) );
#263 = CARTESIAN_POINT ( 'NONE',  ( 3.000000000000000000, 0.000000000000000000, 0.000000000000000000 ) ) ;
#264 = AXIS2_PLACEMENT_3D ( 'NONE', #260, #306, #100 ) ;
#265 = DIRECTION ( 'NONE',  ( 0.000000000000000000, 0.000000000000000000, 1.000000000000000000 ) ) ;
#266 = DATE_TIME_ROLE ( 'classification_date' ) ;
#267 = EDGE_CURVE ( 'NONE', #62, #224, #258, .T. ) ;
#268 = PERSON_AND_ORGANIZATION_ROLE ( 'classification_officer' ) ;
#269 = CIRCLE ( 'NONE', #125, 10.00000000000000000 ) ;
#270 = ORIENTED_EDGE ( 'NONE', *, *, #267, .T. ) ;
#271 = ORIENTED_EDGE ( 'NONE', *, *, #231, .F. ) ;
#272 = AXIS2_PLACEMENT_3D ( 'NONE', #154, #77, #73 ) ;
#273 = VERTEX_POINT ( 'NONE', #240 ) ;
#274 = FACE_OUTER_BOUND ( 'NONE', #298, .T. ) ;
#275 = ORIENTED_EDGE ( 'NONE', *, *, #96, .F. ) ;
#276 = AXIS2_PLACEMENT_3D ( 'NONE', #210, #193, #72 ) ;
#277 = AXIS2_PLACEMENT_3D ( 'NONE', #140, #1, #265 ) ;
#278 = CC_DESIGN_APPROVAL ( #24, ( #149 ) ) ;
#279 = FACE_BOUND ( 'NONE', #301, .T. ) ;
#280 = ADVANCED_FACE ( 'NONE', ( #170 ), #3, .F. ) ;
#281 = DIRECTION ( 'NONE',  ( 1.000000000000000000, 0.000000000000000000, 0.000000000000000000 ) ) ;
#282 = LINE ( 'NONE', #18, #130 ) ;
#283 = DIRECTION ( 'NONE',  ( -0.000000000000000000, 0.000000000000000000, 1.000000000000000000 ) ) ;
#284 = CARTESIAN_POINT ( 'NONE',  ( -0.5000000000000006661, 0.000000000000000000, 0.000000000000000000 ) ) ;
#285 = CIRCLE ( 'NONE', #162, 12.69999999999999929 ) ;
#286 = APPROVAL_DATE_TIME ( #22, #12 ) ;
#287 = DIRECTION ( 'NONE',  ( 0.000000000000000000, 0.000000000000000000, 1.000000000000000000 ) ) ;
#288 = DIRECTION ( 'NONE',  ( -1.000000000000000000, -0.000000000000000000, -0.000000000000000000 ) ) ;
#289 = CARTESIAN_POINT ( 'NONE',  ( -1.614212418857619014, 1.224646799147353256E-15, -10.00000000000000000 ) ) ;
#290 =( GEOMETRIC_REPRESENTATION_CONTEXT ( 3 ) GLOBAL_UNCERTAINTY_ASSIGNED_CONTEXT ( ( #196 ) ) GLOBAL_UNIT_ASSIGNED_CONTEXT ( ( #166, #262, #136 ) ) REPRESENTATION_CONTEXT ( 'NONE', 'WORKASPACE' ) );
#291 = EDGE_LOOP ( 'NONE', ( #175, #275 ) ) ;
#292 = APPROVAL ( #5, 'UNSPECIFIED' ) ;
#293 = COORDINATED_UNIVERSAL_TIME_OFFSET ( 8, 0, .AHEAD. ) ;
#294 = AXIS2_PLACEMENT_3D ( 'NONE', #184, #134, #45 ) ;
#295 = EDGE_CURVE ( 'NONE', #296, #201, #108, .T. ) ;
#296 = VERTEX_POINT ( 'NONE', #138 ) ;
#297 = VERTEX_POINT ( 'NONE', #214 ) ;
#298 = EDGE_LOOP ( 'NONE', ( #60, #225 ) ) ;
#299 = CC_DESIGN_PERSON_AND_ORGANIZATION_ASSIGNMENT ( #239, #8, ( #149 ) ) ;
#300 = AXIS2_PLACEMENT_3D ( 'NONE', #54, #132, #52 ) ;
#301 = EDGE_LOOP ( 'NONE', ( #120, #250 ) ) ;
#302 = CARTESIAN_POINT ( 'NONE',  ( 0.5000000000000013323, 0.000000000000000000, 10.00000000000000000 ) ) ;
#303 = CYLINDRICAL_SURFACE ( 'NONE', #6, 12.69999999999999929 ) ;
#304 = AXIS2_PLACEMENT_3D ( 'NONE', #263, #137, #31 ) ;
#305 = EDGE_CURVE ( 'NONE', #273, #297, #333, .T. ) ;
#306 = DIRECTION ( 'NONE',  ( -1.000000000000000000, -0.000000000000000000, -0.000000000000000000 ) ) ;
#307 = APPLICATION_PROTOCOL_DEFINITION ( 'international standard', 'config_control_design', 1994, #67 ) ;
#308 = CARTESIAN_POINT ( 'NONE',  ( 3.000000000000000000, 1.555301434917138433E-15, -12.69999999999999929 ) ) ;
#309 = PERSON_AND_ORGANIZATION ( #173, #89 ) ;
#310 = CARTESIAN_POINT ( 'NONE',  ( -3.000000000000000000, 0.000000000000000000, 0.000000000000000000 ) ) ;
#311 = EDGE_CURVE ( 'NONE', #297, #273, #30, .T. ) ;
#312 = FACE_OUTER_BOUND ( 'NONE', #61, .T. ) ;
#313 = VECTOR ( 'NONE', #164, 1000.000000000000000 ) ;
#314 = FACE_OUTER_BOUND ( 'NONE', #291, .T. ) ;
#315 = ADVANCED_FACE ( 'NONE', ( #259, #335 ), #234, .F. ) ;
#316 = CALENDAR_DATE ( 2021, 5, 1 ) ;
#317 = CIRCLE ( 'NONE', #169, 12.69999999999999929 ) ;
#318 = ORIENTED_EDGE ( 'NONE', *, *, #295, .T. ) ;
#319 = DATE_AND_TIME ( #186, #208 ) ;
#320 = ORIENTED_EDGE ( 'NONE', *, *, #305, .T. ) ;
#321 = AXIS2_PLACEMENT_3D ( 'NONE', #284, #102, #48 ) ;
#322 = ORIENTED_EDGE ( 'NONE', *, *, #96, .T. ) ;
#323 = EDGE_CURVE ( 'NONE', #58, #36, #246, .T. ) ;
#324 = VERTEX_POINT ( 'NONE', #128 ) ;
#325 = CARTESIAN_POINT ( 'NONE',  ( 0.5000000000000006661, 10.00000000000000000, 0.000000000000000000 ) ) ;
#326 = ORIENTED_EDGE ( 'NONE', *, *, #163, .F. ) ;
#327 = LINE ( 'NONE', #105, #59 ) ;
#328 = DIRECTION ( 'NONE',  ( -1.000000000000000000, -0.000000000000000000, -0.000000000000000000 ) ) ;
#329 = APPROVAL_PERSON_ORGANIZATION ( #223, #24, #32 ) ;
#330 = PLANE ( 'NONE',  #213 ) ;
#331 = MECHANICAL_CONTEXT ( 'NONE', #67, 'mechanical' ) ;
#332 = DIRECTION ( 'NONE',  ( 0.000000000000000000, 0.000000000000000000, 1.000000000000000000 ) ) ;
#333 = CIRCLE ( 'NONE', #145, 10.00000000000000000 ) ;
#334 = ORIENTED_EDGE ( 'NONE', *, *, #206, .T. ) ;
#335 = FACE_BOUND ( 'NONE', #218, .T. ) ;
ENDSEC;
END-ISO-10303-21;
